ISO-10303-21;
HEADER;
FILE_DESCRIPTION((''),'2;1');
FILE_NAME('4_TX-S_PRT','2002-10-15T',('ta29392'),(''),
'PRO/ENGINEER BY PARAMETRIC TECHNOLOGY CORPORATION, 2002220',
'PRO/ENGINEER BY PARAMETRIC TECHNOLOGY CORPORATION, 2002220','');
FILE_SCHEMA(('CONFIG_CONTROL_DESIGN'));
ENDSEC;
DATA;
#1=CARTESIAN_POINT('',(0.E0,0.E0,1.4E-1));
#2=DIRECTION('',(0.E0,0.E0,-1.E0));
#3=DIRECTION('',(0.E0,1.E0,0.E0));
#4=AXIS2_PLACEMENT_3D('',#1,#2,#3);
#6=DIRECTION('',(0.E0,-6.018150231520E-1,-7.986355100473E-1));
#7=VECTOR('',#6,4.984920423367E-2);
#8=CARTESIAN_POINT('',(0.E0,1.575E-1,1.4E-1));
#9=LINE('',#8,#7);
#10=DIRECTION('',(0.E0,6.018150231520E-1,-7.986355100473E-1));
#11=VECTOR('',#10,4.984920423367E-2);
#12=CARTESIAN_POINT('',(0.E0,-1.575E-1,1.4E-1));
#13=LINE('',#12,#11);
#14=CARTESIAN_POINT('',(0.E0,0.E0,1.4E-1));
#15=DIRECTION('',(0.E0,0.E0,1.E0));
#16=DIRECTION('',(0.E0,1.E0,0.E0));
#17=AXIS2_PLACEMENT_3D('',#14,#15,#16);
#19=DIRECTION('',(0.E0,0.E0,-1.E0));
#20=VECTOR('',#19,3.701886553514E-1);
#21=CARTESIAN_POINT('',(0.E0,1.275E-1,1.001886553514E-1));
#22=LINE('',#21,#20);
#23=DIRECTION('',(0.E0,0.E0,-1.E0));
#24=VECTOR('',#23,3.701886553514E-1);
#25=CARTESIAN_POINT('',(0.E0,-1.275E-1,1.001886553514E-1));
#26=LINE('',#25,#24);
#27=CARTESIAN_POINT('',(0.E0,0.E0,1.001886553514E-1));
#28=DIRECTION('',(0.E0,0.E0,1.E0));
#29=DIRECTION('',(0.E0,1.E0,0.E0));
#30=AXIS2_PLACEMENT_3D('',#27,#28,#29);
#32=CARTESIAN_POINT('',(0.E0,0.E0,1.001886553514E-1));
#33=DIRECTION('',(0.E0,0.E0,-1.E0));
#34=DIRECTION('',(0.E0,1.E0,0.E0));
#35=AXIS2_PLACEMENT_3D('',#32,#33,#34);
#37=CARTESIAN_POINT('',(0.E0,0.E0,-2.7E-1));
#38=DIRECTION('',(0.E0,0.E0,1.E0));
#39=DIRECTION('',(0.E0,1.E0,0.E0));
#40=AXIS2_PLACEMENT_3D('',#37,#38,#39);
#42=CARTESIAN_POINT('',(0.E0,0.E0,-2.7E-1));
#43=DIRECTION('',(0.E0,0.E0,-1.E0));
#44=DIRECTION('',(0.E0,1.E0,0.E0));
#45=AXIS2_PLACEMENT_3D('',#42,#43,#44);
#47=CARTESIAN_POINT('',(0.E0,0.E0,-2.7E-1));
#48=DIRECTION('',(0.E0,0.E0,-1.E0));
#49=DIRECTION('',(0.E0,1.E0,0.E0));
#50=AXIS2_PLACEMENT_3D('',#47,#48,#49);
#52=DIRECTION('',(0.E0,0.E0,1.E0));
#53=VECTOR('',#52,2.7E-1);
#54=CARTESIAN_POINT('',(0.E0,1.485E-1,-2.7E-1));
#55=LINE('',#54,#53);
#56=DIRECTION('',(0.E0,0.E0,1.E0));
#57=VECTOR('',#56,2.7E-1);
#58=CARTESIAN_POINT('',(0.E0,-1.485E-1,-2.7E-1));
#59=LINE('',#58,#57);
#60=CARTESIAN_POINT('',(0.E0,0.E0,-2.7E-1));
#61=DIRECTION('',(0.E0,0.E0,1.E0));
#62=DIRECTION('',(0.E0,1.E0,0.E0));
#63=AXIS2_PLACEMENT_3D('',#60,#61,#62);
#65=CARTESIAN_POINT('',(0.E0,0.E0,0.E0));
#66=DIRECTION('',(0.E0,0.E0,1.E0));
#67=DIRECTION('',(0.E0,1.E0,0.E0));
#68=AXIS2_PLACEMENT_3D('',#65,#66,#67);
#70=CARTESIAN_POINT('',(0.E0,0.E0,0.E0));
#71=DIRECTION('',(0.E0,0.E0,-1.E0));
#72=DIRECTION('',(0.E0,1.E0,0.E0));
#73=AXIS2_PLACEMENT_3D('',#70,#71,#72);
#75=CARTESIAN_POINT('',(0.E0,0.E0,0.E0));
#76=DIRECTION('',(0.E0,0.E0,-1.E0));
#77=DIRECTION('',(0.E0,1.E0,0.E0));
#78=AXIS2_PLACEMENT_3D('',#75,#76,#77);
#80=DIRECTION('',(0.E0,0.E0,1.E0));
#81=VECTOR('',#80,1.4E-1);
#82=CARTESIAN_POINT('',(0.E0,1.9E-1,0.E0));
#83=LINE('',#82,#81);
#84=DIRECTION('',(0.E0,0.E0,1.E0));
#85=VECTOR('',#84,1.4E-1);
#86=CARTESIAN_POINT('',(0.E0,-1.9E-1,0.E0));
#87=LINE('',#86,#85);
#88=CARTESIAN_POINT('',(0.E0,0.E0,0.E0));
#89=DIRECTION('',(0.E0,0.E0,1.E0));
#90=DIRECTION('',(0.E0,1.E0,0.E0));
#91=AXIS2_PLACEMENT_3D('',#88,#89,#90);
#93=CARTESIAN_POINT('',(0.E0,0.E0,1.4E-1));
#94=DIRECTION('',(0.E0,0.E0,1.E0));
#95=DIRECTION('',(0.E0,1.E0,0.E0));
#96=AXIS2_PLACEMENT_3D('',#93,#94,#95);
#98=CARTESIAN_POINT('',(0.E0,0.E0,1.4E-1));
#99=DIRECTION('',(0.E0,0.E0,-1.E0));
#100=DIRECTION('',(0.E0,1.E0,0.E0));
#101=AXIS2_PLACEMENT_3D('',#98,#99,#100);
#103=CARTESIAN_POINT('',(0.E0,1.575E-1,1.4E-1));
#104=CARTESIAN_POINT('',(0.E0,1.275E-1,1.001886553514E-1));
#105=VERTEX_POINT('',#103);
#106=VERTEX_POINT('',#104);
#107=CARTESIAN_POINT('',(0.E0,1.275E-1,-2.7E-1));
#108=VERTEX_POINT('',#107);
#109=CARTESIAN_POINT('',(0.E0,1.485E-1,-2.7E-1));
#110=CARTESIAN_POINT('',(0.E0,1.485E-1,0.E0));
#111=VERTEX_POINT('',#109);
#112=VERTEX_POINT('',#110);
#113=CARTESIAN_POINT('',(0.E0,1.9E-1,0.E0));
#114=CARTESIAN_POINT('',(0.E0,1.9E-1,1.4E-1));
#115=VERTEX_POINT('',#113);
#116=VERTEX_POINT('',#114);
#117=CARTESIAN_POINT('',(0.E0,-1.575E-1,1.4E-1));
#118=CARTESIAN_POINT('',(0.E0,-1.275E-1,1.001886553514E-1));
#119=VERTEX_POINT('',#117);
#120=VERTEX_POINT('',#118);
#121=CARTESIAN_POINT('',(0.E0,-1.275E-1,-2.7E-1));
#122=VERTEX_POINT('',#121);
#123=CARTESIAN_POINT('',(0.E0,-1.485E-1,-2.7E-1));
#124=CARTESIAN_POINT('',(0.E0,-1.485E-1,0.E0));
#125=VERTEX_POINT('',#123);
#126=VERTEX_POINT('',#124);
#127=CARTESIAN_POINT('',(0.E0,-1.9E-1,0.E0));
#128=CARTESIAN_POINT('',(0.E0,-1.9E-1,1.4E-1));
#129=VERTEX_POINT('',#127);
#130=VERTEX_POINT('',#128);
#131=CARTESIAN_POINT('',(0.E0,0.E0,1.200943276757E-1));
#132=DIRECTION('',(0.E0,0.E0,1.E0));
#133=DIRECTION('',(0.E0,1.E0,0.E0));
#134=AXIS2_PLACEMENT_3D('',#131,#132,#133);
#135=CONICAL_SURFACE('',#134,1.425E-1,3.7E1);
#137=ORIENTED_EDGE('',*,*,#136,.F.);
#139=ORIENTED_EDGE('',*,*,#138,.T.);
#141=ORIENTED_EDGE('',*,*,#140,.T.);
#143=ORIENTED_EDGE('',*,*,#142,.F.);
#144=EDGE_LOOP('',(#137,#139,#141,#143));
#145=FACE_OUTER_BOUND('',#144,.F.);
#146=ADVANCED_FACE('',(#145),#135,.F.);
#147=CARTESIAN_POINT('',(0.E0,0.E0,1.200943276757E-1));
#148=DIRECTION('',(0.E0,0.E0,1.E0));
#149=DIRECTION('',(0.E0,1.E0,0.E0));
#150=AXIS2_PLACEMENT_3D('',#147,#148,#149);
#151=CONICAL_SURFACE('',#150,1.425E-1,3.7E1);
#152=ORIENTED_EDGE('',*,*,#136,.T.);
#154=ORIENTED_EDGE('',*,*,#153,.T.);
#155=ORIENTED_EDGE('',*,*,#140,.F.);
#157=ORIENTED_EDGE('',*,*,#156,.F.);
#158=EDGE_LOOP('',(#152,#154,#155,#157));
#159=FACE_OUTER_BOUND('',#158,.F.);
#160=ADVANCED_FACE('',(#159),#151,.F.);
#161=CARTESIAN_POINT('',(0.E0,0.E0,1.605E-1));
#162=DIRECTION('',(0.E0,0.E0,-1.E0));
#163=DIRECTION('',(0.E0,-1.E0,0.E0));
#164=AXIS2_PLACEMENT_3D('',#161,#162,#163);
#165=CYLINDRICAL_SURFACE('',#164,1.275E-1);
#167=ORIENTED_EDGE('',*,*,#166,.T.);
#169=ORIENTED_EDGE('',*,*,#168,.T.);
#171=ORIENTED_EDGE('',*,*,#170,.F.);
#172=ORIENTED_EDGE('',*,*,#153,.F.);
#173=EDGE_LOOP('',(#167,#169,#171,#172));
#174=FACE_OUTER_BOUND('',#173,.F.);
#175=ADVANCED_FACE('',(#174),#165,.F.);
#176=CARTESIAN_POINT('',(0.E0,0.E0,1.605E-1));
#177=DIRECTION('',(0.E0,0.E0,-1.E0));
#178=DIRECTION('',(0.E0,-1.E0,0.E0));
#179=AXIS2_PLACEMENT_3D('',#176,#177,#178);
#180=CYLINDRICAL_SURFACE('',#179,1.275E-1);
#181=ORIENTED_EDGE('',*,*,#166,.F.);
#182=ORIENTED_EDGE('',*,*,#142,.T.);
#183=ORIENTED_EDGE('',*,*,#170,.T.);
#185=ORIENTED_EDGE('',*,*,#184,.F.);
#186=EDGE_LOOP('',(#181,#182,#183,#185));
#187=FACE_OUTER_BOUND('',#186,.F.);
#188=ADVANCED_FACE('',(#187),#180,.F.);
#189=CARTESIAN_POINT('',(0.E0,0.E0,-2.7E-1));
#190=DIRECTION('',(0.E0,0.E0,-1.E0));
#191=DIRECTION('',(0.E0,-1.E0,0.E0));
#192=AXIS2_PLACEMENT_3D('',#189,#190,#191);
#193=PLANE('',#192);
#195=ORIENTED_EDGE('',*,*,#194,.F.);
#197=ORIENTED_EDGE('',*,*,#196,.T.);
#198=EDGE_LOOP('',(#195,#197));
#199=FACE_OUTER_BOUND('',#198,.F.);
#200=ORIENTED_EDGE('',*,*,#168,.F.);
#201=ORIENTED_EDGE('',*,*,#184,.T.);
#202=EDGE_LOOP('',(#200,#201));
#203=FACE_BOUND('',#202,.F.);
#204=ADVANCED_FACE('',(#199,#203),#193,.T.);
#205=CARTESIAN_POINT('',(0.E0,0.E0,1.605E-1));
#206=DIRECTION('',(0.E0,0.E0,-1.E0));
#207=DIRECTION('',(0.E0,-1.E0,0.E0));
#208=AXIS2_PLACEMENT_3D('',#205,#206,#207);
#209=CYLINDRICAL_SURFACE('',#208,1.485E-1);
#211=ORIENTED_EDGE('',*,*,#210,.F.);
#212=ORIENTED_EDGE('',*,*,#194,.T.);
#214=ORIENTED_EDGE('',*,*,#213,.T.);
#216=ORIENTED_EDGE('',*,*,#215,.F.);
#217=EDGE_LOOP('',(#211,#212,#214,#216));
#218=FACE_OUTER_BOUND('',#217,.F.);
#219=ADVANCED_FACE('',(#218),#209,.T.);
#220=CARTESIAN_POINT('',(0.E0,0.E0,1.605E-1));
#221=DIRECTION('',(0.E0,0.E0,-1.E0));
#222=DIRECTION('',(0.E0,-1.E0,0.E0));
#223=AXIS2_PLACEMENT_3D('',#220,#221,#222);
#224=CYLINDRICAL_SURFACE('',#223,1.485E-1);
#225=ORIENTED_EDGE('',*,*,#210,.T.);
#227=ORIENTED_EDGE('',*,*,#226,.T.);
#228=ORIENTED_EDGE('',*,*,#213,.F.);
#229=ORIENTED_EDGE('',*,*,#196,.F.);
#230=EDGE_LOOP('',(#225,#227,#228,#229));
#231=FACE_OUTER_BOUND('',#230,.F.);
#232=ADVANCED_FACE('',(#231),#224,.T.);
#233=CARTESIAN_POINT('',(0.E0,0.E0,0.E0));
#234=DIRECTION('',(0.E0,0.E0,-1.E0));
#235=DIRECTION('',(0.E0,-1.E0,0.E0));
#236=AXIS2_PLACEMENT_3D('',#233,#234,#235);
#237=PLANE('',#236);
#239=ORIENTED_EDGE('',*,*,#238,.F.);
#241=ORIENTED_EDGE('',*,*,#240,.T.);
#242=EDGE_LOOP('',(#239,#241));
#243=FACE_OUTER_BOUND('',#242,.F.);
#244=ORIENTED_EDGE('',*,*,#226,.F.);
#245=ORIENTED_EDGE('',*,*,#215,.T.);
#246=EDGE_LOOP('',(#244,#245));
#247=FACE_BOUND('',#246,.F.);
#248=ADVANCED_FACE('',(#243,#247),#237,.T.);
#249=CARTESIAN_POINT('',(0.E0,0.E0,1.605E-1));
#250=DIRECTION('',(0.E0,0.E0,-1.E0));
#251=DIRECTION('',(0.E0,-1.E0,0.E0));
#252=AXIS2_PLACEMENT_3D('',#249,#250,#251);
#253=CYLINDRICAL_SURFACE('',#252,1.9E-1);
#255=ORIENTED_EDGE('',*,*,#254,.F.);
#256=ORIENTED_EDGE('',*,*,#238,.T.);
#258=ORIENTED_EDGE('',*,*,#257,.T.);
#260=ORIENTED_EDGE('',*,*,#259,.F.);
#261=EDGE_LOOP('',(#255,#256,#258,#260));
#262=FACE_OUTER_BOUND('',#261,.F.);
#263=ADVANCED_FACE('',(#262),#253,.T.);
#264=CARTESIAN_POINT('',(0.E0,0.E0,1.605E-1));
#265=DIRECTION('',(0.E0,0.E0,-1.E0));
#266=DIRECTION('',(0.E0,-1.E0,0.E0));
#267=AXIS2_PLACEMENT_3D('',#264,#265,#266);
#268=CYLINDRICAL_SURFACE('',#267,1.9E-1);
#269=ORIENTED_EDGE('',*,*,#254,.T.);
#271=ORIENTED_EDGE('',*,*,#270,.T.);
#272=ORIENTED_EDGE('',*,*,#257,.F.);
#273=ORIENTED_EDGE('',*,*,#240,.F.);
#274=EDGE_LOOP('',(#269,#271,#272,#273));
#275=FACE_OUTER_BOUND('',#274,.F.);
#276=ADVANCED_FACE('',(#275),#268,.T.);
#277=CARTESIAN_POINT('',(0.E0,0.E0,1.4E-1));
#278=DIRECTION('',(0.E0,0.E0,-1.E0));
#279=DIRECTION('',(0.E0,-1.E0,0.E0));
#280=AXIS2_PLACEMENT_3D('',#277,#278,#279);
#281=PLANE('',#280);
#282=ORIENTED_EDGE('',*,*,#270,.F.);
#283=ORIENTED_EDGE('',*,*,#259,.T.);
#284=EDGE_LOOP('',(#282,#283));
#285=FACE_OUTER_BOUND('',#284,.F.);
#286=ORIENTED_EDGE('',*,*,#138,.F.);
#287=ORIENTED_EDGE('',*,*,#156,.T.);
#288=EDGE_LOOP('',(#286,#287));
#289=FACE_BOUND('',#288,.F.);
#290=ADVANCED_FACE('',(#285,#289),#281,.F.);
#291=CLOSED_SHELL('',(#146,#160,#175,#188,#204,#219,#232,#248,#263,#276,#290));
#292=MANIFOLD_SOLID_BREP('',#291);
#293=DIMENSIONAL_EXPONENTS(1.E0,0.E0,0.E0,0.E0,0.E0,0.E0,0.E0);
#294=(LENGTH_UNIT()NAMED_UNIT(*)SI_UNIT(.MILLI.,.METRE.));
#295=LENGTH_MEASURE_WITH_UNIT(LENGTH_MEASURE(2.54E1),#294);
#296=(CONVERSION_BASED_UNIT('INCH',#295)LENGTH_UNIT()NAMED_UNIT(#293));
#297=DIMENSIONAL_EXPONENTS(0.E0,0.E0,0.E0,0.E0,0.E0,0.E0,0.E0);
#298=(NAMED_UNIT(*)PLANE_ANGLE_UNIT()SI_UNIT($,.RADIAN.));
#299=PLANE_ANGLE_MEASURE_WITH_UNIT(PLANE_ANGLE_MEASURE(1.745329251994E-2),#298);
#300=(CONVERSION_BASED_UNIT('DEGREE',#299)NAMED_UNIT(#297)PLANE_ANGLE_UNIT());
#301=(NAMED_UNIT(*)SI_UNIT($,.STERADIAN.)SOLID_ANGLE_UNIT());
#302=UNCERTAINTY_MEASURE_WITH_UNIT(LENGTH_MEASURE(6.760639178093E-5),#296,
'closure',
'Maximum model space distance between geometric entities at asserted connectivities');
#303=(GEOMETRIC_REPRESENTATION_CONTEXT(3)GLOBAL_UNCERTAINTY_ASSIGNED_CONTEXT((
#302))GLOBAL_UNIT_ASSIGNED_CONTEXT((#296,#300,#301))REPRESENTATION_CONTEXT
('ID1','3'));
#305=APPLICATION_CONTEXT(
'CONFIGURATION CONTROLLED 3D DESIGNS OF MECHANICAL PARTS AND ASSEMBLIES');
#306=APPLICATION_PROTOCOL_DEFINITION('international standard',
'config_control_design',1994,#305);
#307=DESIGN_CONTEXT('',#305,'design');
#308=MECHANICAL_CONTEXT('',#305,'mechanical');
#309=PRODUCT('4_TX-S_PRT','4_TX-S_PRT','NOT SPECIFIED',(#308));
#310=PRODUCT_DEFINITION_FORMATION_WITH_SPECIFIED_SOURCE('1','LAST_VERSION',#309,
.MADE.);
#314=PRODUCT_CATEGORY('part','');
#315=PRODUCT_RELATED_PRODUCT_CATEGORY('detail','',(#309));
#316=PRODUCT_CATEGORY_RELATIONSHIP('','',#314,#315);
#317=SECURITY_CLASSIFICATION_LEVEL('unclassified');
#318=SECURITY_CLASSIFICATION('','',#317);
#319=CC_DESIGN_SECURITY_CLASSIFICATION(#318,(#310));
#320=APPROVAL_STATUS('approved');
#321=APPROVAL(#320,'');
#322=CC_DESIGN_APPROVAL(#321,(#318,#310,#311));
#323=CALENDAR_DATE(102,15,10);
#324=COORDINATED_UNIVERSAL_TIME_OFFSET(3,0,.BEHIND.);
#325=LOCAL_TIME(15,34,3.E1,#324);
#326=DATE_AND_TIME(#323,#325);
#327=APPROVAL_DATE_TIME(#326,#321);
#328=DATE_TIME_ROLE('creation_date');
#329=CC_DESIGN_DATE_AND_TIME_ASSIGNMENT(#326,#328,(#311));
#330=DATE_TIME_ROLE('classification_date');
#331=CC_DESIGN_DATE_AND_TIME_ASSIGNMENT(#326,#330,(#318));
#332=PERSON('UNSPECIFIED','UNSPECIFIED',$,$,$,$);
#333=ORGANIZATION('UNSPECIFIED','UNSPECIFIED','UNSPECIFIED');
#334=PERSON_AND_ORGANIZATION(#332,#333);
#335=APPROVAL_ROLE('approver');
#336=APPROVAL_PERSON_ORGANIZATION(#334,#321,#335);
#337=PERSON_AND_ORGANIZATION_ROLE('creator');
#338=CC_DESIGN_PERSON_AND_ORGANIZATION_ASSIGNMENT(#334,#337,(#310,#311));
#339=PERSON_AND_ORGANIZATION_ROLE('design_supplier');
#340=CC_DESIGN_PERSON_AND_ORGANIZATION_ASSIGNMENT(#334,#339,(#310));
#341=PERSON_AND_ORGANIZATION_ROLE('classification_officer');
#342=CC_DESIGN_PERSON_AND_ORGANIZATION_ASSIGNMENT(#334,#341,(#318));
#343=PERSON_AND_ORGANIZATION_ROLE('design_owner');
#344=CC_DESIGN_PERSON_AND_ORGANIZATION_ASSIGNMENT(#334,#343,(#309));
#5=CIRCLE('',#4,1.575E-1);
#18=CIRCLE('',#17,1.575E-1);
#31=CIRCLE('',#30,1.275E-1);
#36=CIRCLE('',#35,1.275E-1);
#41=CIRCLE('',#40,1.275E-1);
#46=CIRCLE('',#45,1.275E-1);
#51=CIRCLE('',#50,1.485E-1);
#64=CIRCLE('',#63,1.485E-1);
#69=CIRCLE('',#68,1.485E-1);
#74=CIRCLE('',#73,1.485E-1);
#79=CIRCLE('',#78,1.9E-1);
#92=CIRCLE('',#91,1.9E-1);
#97=CIRCLE('',#96,1.9E-1);
#102=CIRCLE('',#101,1.9E-1);
#136=EDGE_CURVE('',#105,#106,#9,.T.);
#138=EDGE_CURVE('',#105,#119,#5,.T.);
#140=EDGE_CURVE('',#119,#120,#13,.T.);
#142=EDGE_CURVE('',#106,#120,#36,.T.);
#153=EDGE_CURVE('',#106,#120,#31,.T.);
#156=EDGE_CURVE('',#105,#119,#18,.T.);
#166=EDGE_CURVE('',#106,#108,#22,.T.);
#168=EDGE_CURVE('',#108,#122,#41,.T.);
#170=EDGE_CURVE('',#120,#122,#26,.T.);
#184=EDGE_CURVE('',#108,#122,#46,.T.);
#194=EDGE_CURVE('',#111,#125,#51,.T.);
#196=EDGE_CURVE('',#111,#125,#64,.T.);
#210=EDGE_CURVE('',#111,#112,#55,.T.);
#213=EDGE_CURVE('',#125,#126,#59,.T.);
#215=EDGE_CURVE('',#112,#126,#74,.T.);
#226=EDGE_CURVE('',#112,#126,#69,.T.);
#238=EDGE_CURVE('',#115,#129,#79,.T.);
#240=EDGE_CURVE('',#115,#129,#92,.T.);
#254=EDGE_CURVE('',#115,#116,#83,.T.);
#257=EDGE_CURVE('',#129,#130,#87,.T.);
#259=EDGE_CURVE('',#116,#130,#102,.T.);
#270=EDGE_CURVE('',#116,#130,#97,.T.);
#304=ADVANCED_BREP_SHAPE_REPRESENTATION('',(#292),#303);
#311=PRODUCT_DEFINITION('design','',#310,#307);
#312=PRODUCT_DEFINITION_SHAPE('','SHAPE FOR 4_TX-S_PRT.',#311);
#313=SHAPE_DEFINITION_REPRESENTATION(#312,#304);
ENDSEC;
END-ISO-10303-21;
