                                                                        S      1
,,10H4_TX-S_PRT,6H4_TX-S,22HAutodesk Inventor 2016,7Hunknown,32,38,7,99,G      1
15,,1.,1,4HINCH,1,0.08,15H20170823.091656,0.000393700787401575,10000.,7HG      2
ta29392,,11,0,15H20170823.131654;                                       G      3
     186       1                                                00000000D      1
     186             -93       1       0                               0D      2
     514       2                                                00010000D      3
     514                       1       1                               0D      4
     510       3                                                00010000D      5
     510             -93       1       1                               0D      6
     510       4                                                00010000D      7
     510             -93       1       1                               0D      8
     510       5                                                00010000D      9
     510             -93       1       1                               0D     10
     510       6                                                00010000D     11
     510             -93       1       1                               0D     12
     510       7                                                00010000D     13
     510             -93       1       1                               0D     14
     510       8                                                00010000D     15
     510             -93       1       1                               0D     16
     510       9                                                00010000D     17
     510             -93       1       1                               0D     18
     508      10                                                00010000D     19
     508                       1       1                               0D     20
     508      11                                                00010000D     21
     508                       2       1                               0D     22
     508      13                                                00010000D     23
     508                       1       1                               0D     24
     508      14                                                00010000D     25
     508                       1       1                               0D     26
     508      15                                                00010000D     27
     508                       2       1                               0D     28
     508      17                                                00010000D     29
     508                       1       1                               0D     30
     508      18                                                00010000D     31
     508                       1       1                               0D     32
     508      19                                                00010000D     33
     508                       2       1                               0D     34
     508      21                                                00010000D     35
     508                       1       1                               0D     36
     508      22                                                00010000D     37
     508                       1       1                               0D     38
     126      23                                                00010000D     39
     126       0               7       0                               0D     40
     126      30                                                00010000D     41
     126       0               7       0                               0D     42
     126      37                                                00010000D     43
     126       0               4       0                               0D     44
     126      41                                                00010000D     45
     126       0              10       0                               0D     46
     126      51                                                00010000D     47
     126       0               4       0                               0D     48
     126      55                                                00010000D     49
     126       0               6       0                               0D     50
     126      61                                                00010000D     51
     126       0               6       0                               0D     52
     126      67                                                00010000D     53
     126       0               6       0                               0D     54
     126      73                                                00010000D     55
     126       0               6       0                               0D     56
     126      79                                                00010000D     57
     126       0               4       0                               0D     58
     126      83                                                00010000D     59
     126       0               5       0                               0D     60
     126      88                                                00010000D     61
     126       0               5       0                               0D     62
     126      93                                                00010000D     63
     126       0               5       0                               0D     64
     126      98                                                00010000D     65
     126       0               5       0                               0D     66
     126     103                                                00010000D     67
     126       0               3       0                               0D     68
     126     106                                                00010000D     69
     126       0               5       0                               0D     70
     126     111                                                00010000D     71
     126       0               5       0                               0D     72
     128     116                                                00010000D     73
     128       0     -93      24       0                               0D     74
     128     140                                                00010000D     75
     128       0     -93      17       0                               0D     76
     128     157                                                00010000D     77
     128       0     -93       4       0                               0D     78
     128     161                                                00010000D     79
     128       0     -93      18       0                               0D     80
     128     179                                                00010000D     81
     128       0     -93       3       0                               0D     82
     128     182                                                00010000D     83
     128       0     -93      13       0                               0D     84
     128     195                                                00010000D     85
     128       0     -93       3       0                               0D     86
     502     198                                                00010000D     87
     502                       4       1                               0D     88
     504     202                                                00010001D     89
     504                       4       1                               0D     90
     406     206                                                00000000D     91
     406                       1      15                               0D     92
     314     207                                                00000200D     93
     314                       1       0                               0D     94
186,3,1,0,0,1,91;                                                      1P      1
514,7,5,1,7,1,9,1,11,1,13,1,15,1,17,1;                                 3P      2
510,73,1,1,19;                                                         5P      3
510,75,1,1,21;                                                         7P      4
510,77,2,1,23,25;                                                      9P      5
510,79,1,1,27;                                                        11P      6
510,81,2,1,29,31;                                                     13P      7
510,83,1,1,33;                                                        15P      8
510,85,2,1,35,37;                                                     17P      9
508,5,0,89,1,1,0,0,89,2,1,0,0,89,3,1,0,0,89,4,1,0,0,89,3,0,0;         19P     10
508,6,0,89,1,0,0,0,89,2,0,0,0,89,5,1,0,0,89,6,1,0,0,89,7,1,0,0,       21P     11
89,5,0,0;                                                             21P     12
508,2,0,89,8,1,0,0,89,9,1,0;                                          23P     13
508,2,0,89,7,0,0,0,89,6,0,0;                                          25P     14
508,6,0,89,8,0,0,0,89,9,0,0,0,89,10,1,0,0,89,11,1,0,0,89,12,1,0,      27P     15
0,89,10,0,0;                                                          27P     16
508,2,0,89,13,1,0,0,89,14,1,0;                                        29P     17
508,2,0,89,12,0,0,0,89,11,0,0;                                        31P     18
508,6,0,89,13,0,0,0,89,14,0,0,0,89,15,1,0,0,89,16,1,0,0,89,17,1,      33P     19
0,0,89,15,0,0;                                                        33P     20
508,2,0,89,17,0,0,0,89,16,0,0;                                        35P     21
508,1,0,89,4,0,0;                                                     37P     22
126,4,2,0,0,0,0,-3.14159265358979,-3.14159265358979,                  39P     23
-3.14159265358979,-1.5707963267949,-1.5707963267949,0.,0.,0.,1.,      39P     24
0.707106781186548,1.,0.707106781186547,1.,-1.56142466891288D-17,      39P     25
-0.1275,0.1001886553514,-0.1275,-0.1275,0.1001886553514,-0.1275,      39P     26
7.80712334456438D-18,0.1001886553514,-0.1275,0.1275,                  39P     27
0.1001886553514,0.,0.1275,0.1001886553514,-3.14159265358979,0.,       39P     28
0.,0.,0.;                                                             39P     29
126,4,2,0,0,0,0,0.,0.,0.,1.5707963267949,1.5707963267949,             41P     30
3.14159265358979,3.14159265358979,3.14159265358979,1.,                41P     31
0.707106781186547,1.,0.707106781186548,1.,0.,0.1275,                  41P     32
0.1001886553514,0.1275,0.1275,0.1001886553514,0.1275,                 41P     33
7.80712334456438D-18,0.1001886553514,0.1275,-0.1275,                  41P     34
0.1001886553514,1.56142466891288D-17,-0.1275,0.1001886553514,0.,      41P     35
3.14159265358979,0.,0.,0.;                                            41P     36
126,1,1,0,0,1,0,-0.174909488539174,-0.174909488539174,                43P     37
0.174909488539175,0.174909488539175,1.,1.,0.,-0.127500000000003,      43P     38
0.100188655351398,0.,-0.157499999999997,0.140000000000002,            43P     39
-0.174909488539174,0.174909488539175,0.,0.,0.;                        43P     40
126,8,2,0,1,0,0,-3.14159265358979,-3.14159265358979,                  45P     41
-3.14159265358979,-1.5707963267949,-1.5707963267949,0.,0.,            45P     42
1.5707963267949,1.5707963267949,3.14159265358979,                     45P     43
3.14159265358979,3.14159265358979,1.,0.707106781186547,1.,            45P     44
0.707106781186547,1.,0.707106781186547,1.,0.707106781186547,1.,       45P     45
1.92881870865708D-17,-0.1575,0.14,0.1575,-0.1575,0.14,0.1575,         45P     46
9.64409354328541D-18,0.14,0.1575,0.1575,0.14,0.,0.1575,0.14,          45P     47
-0.1575,0.1575,0.14,-0.1575,9.64409354328541D-18,0.14,-0.1575,        45P     48
-0.1575,0.14,-1.92881870865708D-17,-0.1575,0.14,                      45P     49
-3.14159265358979,3.14159265358979,0.,0.,0.;                          45P     50
126,1,1,0,0,1,0,0.473030154106667,0.473030154106667,                  47P     51
3.37647058823529,3.37647058823529,1.,1.,0.,0.1275,                    47P     52
0.1001886553514,0.,0.1275,-0.27,0.473030154106667,                    47P     53
3.37647058823529,0.,0.,0.;                                            47P     54
126,4,2,0,0,0,0,0.,0.,0.,1.5707963267949,1.5707963267949,             49P     55
3.14159265358979,3.14159265358979,3.14159265358979,1.,                49P     56
0.707106781186547,1.,0.707106781186548,1.,0.,0.1275,-0.27,            49P     57
0.1275,0.1275,-0.27,0.1275,7.80712334456438D-18,-0.27,0.1275,         49P     58
-0.1275,-0.27,1.56142466891288D-17,-0.1275,-0.27,0.,                  49P     59
3.14159265358979,0.,0.,0.;                                            49P     60
126,4,2,0,0,0,0,-3.14159265358979,-3.14159265358979,                  51P     61
-3.14159265358979,-1.5707963267949,-1.5707963267949,0.,0.,0.,1.,      51P     62
0.707106781186548,1.,0.707106781186547,1.,-1.56142466891288D-17,      51P     63
-0.1275,-0.27,-0.1275,-0.1275,-0.27,-0.1275,                          51P     64
7.80712334456438D-18,-0.27,-0.1275,0.1275,-0.27,0.,0.1275,-0.27,      51P     65
-3.14159265358979,0.,0.,0.,0.;                                        51P     66
126,4,2,0,0,0,0,-3.14159265358979,-3.14159265358979,                  53P     67
-3.14159265358979,-1.5707963267949,-1.5707963267949,0.,0.,0.,1.,      53P     68
0.707106781186547,1.,0.707106781186547,1.,-1.81860049673382D-17,      53P     69
-0.1485,-0.27,-0.1485,-0.1485,-0.27,-0.1485,9.0930024836691D-18,      53P     70
-0.27,-0.1485,0.1485,-0.27,0.,0.1485,-0.27,-3.14159265358979,0.,      53P     71
0.,0.,0.;                                                             53P     72
126,4,2,0,0,0,0,0.,0.,0.,1.5707963267949,1.5707963267949,             55P     73
3.14159265358979,3.14159265358979,3.14159265358979,1.,                55P     74
0.707106781186547,1.,0.707106781186547,1.,0.,0.1485,-0.27,            55P     75
0.1485,0.1485,-0.27,0.1485,9.0930024836691D-18,-0.27,0.1485,          55P     76
-0.1485,-0.27,1.81860049673382D-17,-0.1485,-0.27,0.,                  55P     77
3.14159265358979,0.,0.,0.;                                            55P     78
126,1,1,0,0,1,0,-2.8989898989899,-2.8989898989899,                    57P     79
-1.08080808080808,-1.08080808080808,1.,1.,0.,0.1485,-0.27,0.,         57P     80
0.1485,2.18547839493141D-17,-2.8989898989899,-1.08080808080808,       57P     81
0.,0.,0.;                                                             57P     82
126,4,2,0,0,0,0,0.,0.,0.,1.5707963267949,1.5707963267949,             59P     83
3.14159265358979,3.14159265358979,3.14159265358979,1.,                59P     84
0.707106781186547,1.,0.707106781186547,1.,0.,0.1485,0.,0.1485,        59P     85
0.1485,0.,0.1485,9.0930024836691D-18,0.,0.1485,-0.1485,0.,            59P     86
1.81860049673382D-17,-0.1485,0.,0.,3.14159265358979,0.,0.,0.;         59P     87
126,4,2,0,0,0,0,-3.14159265358979,-3.14159265358979,                  61P     88
-3.14159265358979,-1.5707963267949,-1.5707963267949,0.,0.,0.,1.,      61P     89
0.707106781186547,1.,0.707106781186547,1.,-1.81860049673382D-17,      61P     90
-0.1485,0.,-0.1485,-0.1485,0.,-0.1485,9.0930024836691D-18,0.,         61P     91
-0.1485,0.1485,0.,0.,0.1485,0.,-3.14159265358979,0.,0.,0.,0.;         61P     92
126,4,2,0,0,0,0,-3.14159265358979,-3.14159265358979,                  63P     93
-3.14159265358979,-1.5707963267949,-1.5707963267949,0.,0.,0.,1.,      63P     94
0.707106781186547,1.,0.707106781186548,1.,-2.32682891837997D-17,      63P     95
-0.19,0.,-0.19,-0.19,0.,-0.19,1.16341445918999D-17,0.,-0.19,          63P     96
0.19,0.,0.,0.19,0.,-3.14159265358979,0.,0.,0.,0.;                     63P     97
126,4,2,0,0,0,0,0.,0.,0.,1.5707963267949,1.5707963267949,             65P     98
3.14159265358979,3.14159265358979,3.14159265358979,1.,                65P     99
0.707106781186548,1.,0.707106781186547,1.,0.,0.19,0.,0.19,0.19,       65P    100
0.,0.19,1.16341445918999D-17,0.,0.19,-0.19,0.,                        65P    101
2.32682891837997D-17,-0.19,0.,0.,3.14159265358979,0.,0.,0.;           65P    102
126,1,1,0,0,1,0,-0.844736842105263,-0.844736842105263,                67P    103
-0.107894736842105,-0.107894736842105,1.,1.,0.,0.19,0.,0.,0.19,       67P    104
0.14,-0.844736842105263,-0.107894736842105,0.,0.,0.;                  67P    105
126,4,2,0,0,0,0,0.,0.,0.,1.5707963267949,1.5707963267949,             69P    106
3.14159265358979,3.14159265358979,3.14159265358979,1.,                69P    107
0.707106781186548,1.,0.707106781186547,1.,0.,0.19,0.14,0.19,          69P    108
0.19,0.14,0.19,1.16341445918999D-17,0.14,0.19,-0.19,0.14,             69P    109
2.32682891837997D-17,-0.19,0.14,0.,3.14159265358979,0.,0.,0.;         69P    110
126,4,2,0,0,0,0,-3.14159265358979,-3.14159265358979,                  71P    111
-3.14159265358979,-1.5707963267949,-1.5707963267949,0.,0.,0.,1.,      71P    112
0.707106781186547,1.,0.707106781186548,1.,-2.32682891837997D-17,      71P    113
-0.19,0.14,-0.19,-0.19,0.14,-0.19,1.16341445918999D-17,0.14,          71P    114
-0.19,0.19,0.14,0.,0.19,0.14,-3.14159265358979,0.,0.,0.,0.;           71P    115
128,1,8,1,2,0,1,0,0,1,-0.174909488539174,-0.174909488539174,          73P    116
0.174909488539175,0.174909488539175,-3.14159265358979,                73P    117
-3.14159265358979,-3.14159265358979,-1.5707963267949,                 73P    118
-1.5707963267949,0.,0.,1.5707963267949,1.5707963267949,               73P    119
3.14159265358979,3.14159265358979,3.14159265358979,1.,1.,             73P    120
0.707106781186548,0.707106781186548,1.,1.,0.707106781186548,          73P    121
0.707106781186548,1.,1.,0.707106781186548,0.707106781186548,1.,       73P    122
1.,0.707106781186548,0.707106781186548,1.,1.,0.,                      73P    123
-0.127500000000003,0.100188655351398,0.,-0.157499999999997,           73P    124
0.140000000000002,0.127500000000003,-0.127500000000003,               73P    125
0.100188655351398,0.157499999999997,-0.157499999999997,               73P    126
0.140000000000002,0.127500000000003,0.,0.100188655351398,             73P    127
0.157499999999997,0.,0.140000000000002,0.127500000000003,             73P    128
0.127500000000003,0.100188655351398,0.157499999999997,                73P    129
0.157499999999997,0.140000000000002,0.,0.127500000000003,             73P    130
0.100188655351398,0.,0.157499999999997,0.140000000000002,             73P    131
-0.127500000000003,0.127500000000003,0.100188655351398,               73P    132
-0.157499999999997,0.157499999999997,0.140000000000002,               73P    133
-0.127500000000003,0.,0.100188655351398,-0.157499999999997,0.,        73P    134
0.140000000000002,-0.127500000000003,-0.127500000000003,              73P    135
0.100188655351398,-0.157499999999997,-0.157499999999997,              73P    136
0.140000000000002,0.,-0.127500000000003,0.100188655351398,0.,         73P    137
-0.157499999999997,0.140000000000002,-0.174909488539174,              73P    138
0.174909488539175,-3.14159265358979,3.14159265358979;                 73P    139
128,1,8,1,2,0,1,0,0,1,0.473030154106667,0.473030154106667,            75P    140
3.37647058823529,3.37647058823529,-3.14159265358979,                  75P    141
-3.14159265358979,-3.14159265358979,-1.5707963267949,                 75P    142
-1.5707963267949,0.,0.,1.5707963267949,1.5707963267949,               75P    143
3.14159265358979,3.14159265358979,3.14159265358979,1.,1.,             75P    144
0.707106781186548,0.707106781186548,1.,1.,0.707106781186548,          75P    145
0.707106781186548,1.,1.,0.707106781186548,0.707106781186548,1.,       75P    146
1.,0.707106781186548,0.707106781186548,1.,1.,0.,0.1275,               75P    147
0.1001886553514,0.,0.1275,-0.27,0.1275,0.1275,0.1001886553514,        75P    148
0.1275,0.1275,-0.27,0.1275,0.,0.1001886553514,0.1275,0.,-0.27,        75P    149
0.1275,-0.1275,0.1001886553514,0.1275,-0.1275,-0.27,0.,-0.1275,       75P    150
0.1001886553514,0.,-0.1275,-0.27,-0.1275,-0.1275,                     75P    151
0.1001886553514,-0.1275,-0.1275,-0.27,-0.1275,0.,                     75P    152
0.1001886553514,-0.1275,0.,-0.27,-0.1275,0.1275,0.1001886553514,      75P    153
-0.1275,0.1275,-0.27,0.,0.1275,0.1001886553514,0.,0.1275,-0.27,       75P    154
0.473030154106667,3.37647058823529,-3.14159265358979,                 75P    155
3.14159265358979;                                                     75P    156
128,1,1,1,1,0,0,1,0,0,-0.1485,-0.1485,0.1485,0.1485,-0.1485,          77P    157
-0.1485,0.1485,0.1485,1.,1.,1.,1.,0.1485,0.1485,-0.27,0.1485,         77P    158
-0.1485,-0.27,-0.1485,0.1485,-0.27,-0.1485,-0.1485,-0.27,             77P    159
-0.1485,0.1485,-0.1485,0.1485;                                        77P    160
128,1,8,1,2,0,1,0,0,1,1.08080808080808,1.08080808080808,              79P    161
2.8989898989899,2.8989898989899,-3.14159265358979,                    79P    162
-3.14159265358979,-3.14159265358979,-1.5707963267949,                 79P    163
-1.5707963267949,0.,0.,1.5707963267949,1.5707963267949,               79P    164
3.14159265358979,3.14159265358979,3.14159265358979,1.,1.,             79P    165
0.707106781186548,0.707106781186548,1.,1.,0.707106781186548,          79P    166
0.707106781186548,1.,1.,0.707106781186548,0.707106781186548,1.,       79P    167
1.,0.707106781186548,0.707106781186548,1.,1.,0.,0.1485,-0.27,0.,      79P    168
0.1485,2.18547839493141D-17,0.1485,0.1485,-0.27,0.1485,0.1485,        79P    169
2.18547839493141D-17,0.1485,0.,-0.27,0.1485,0.,                       79P    170
2.18547839493141D-17,0.1485,-0.1485,-0.27,0.1485,-0.1485,             79P    171
2.18547839493141D-17,0.,-0.1485,-0.27,0.,-0.1485,                     79P    172
2.18547839493141D-17,-0.1485,-0.1485,-0.27,-0.1485,-0.1485,           79P    173
2.18547839493141D-17,-0.1485,0.,-0.27,-0.1485,0.,                     79P    174
2.18547839493141D-17,-0.1485,0.1485,-0.27,-0.1485,0.1485,             79P    175
2.18547839493141D-17,0.,0.1485,-0.27,0.,0.1485,                       79P    176
2.18547839493141D-17,1.08080808080808,2.8989898989899,                79P    177
-3.14159265358979,3.14159265358979;                                   79P    178
128,1,1,1,1,0,0,1,0,0,-0.19,-0.19,0.19,0.19,-0.19,-0.19,0.19,         81P    179
0.19,1.,1.,1.,1.,0.19,0.19,0.,0.19,-0.19,0.,-0.19,0.19,0.,-0.19,      81P    180
-0.19,0.,-0.19,0.19,-0.19,0.19;                                       81P    181
128,1,8,1,2,0,1,0,0,1,0.107894736842105,0.107894736842105,            83P    182
0.844736842105263,0.844736842105263,-3.14159265358979,                83P    183
-3.14159265358979,-3.14159265358979,-1.5707963267949,                 83P    184
-1.5707963267949,0.,0.,1.5707963267949,1.5707963267949,               83P    185
3.14159265358979,3.14159265358979,3.14159265358979,1.,1.,             83P    186
0.707106781186548,0.707106781186548,1.,1.,0.707106781186548,          83P    187
0.707106781186548,1.,1.,0.707106781186548,0.707106781186548,1.,       83P    188
1.,0.707106781186548,0.707106781186548,1.,1.,0.,0.19,0.,0.,0.19,      83P    189
0.14,0.19,0.19,0.,0.19,0.19,0.14,0.19,0.,0.,0.19,0.,0.14,0.19,        83P    190
-0.19,0.,0.19,-0.19,0.14,0.,-0.19,0.,0.,-0.19,0.14,-0.19,-0.19,       83P    191
0.,-0.19,-0.19,0.14,-0.19,0.,0.,-0.19,0.,0.14,-0.19,0.19,0.,          83P    192
-0.19,0.19,0.14,0.,0.19,0.,0.,0.19,0.14,0.107894736842105,            83P    193
0.844736842105263,-3.14159265358979,3.14159265358979;                 83P    194
128,1,1,1,1,0,0,1,0,0,-0.19,-0.19,0.19,0.19,-0.19,-0.19,0.19,         85P    195
0.19,1.,1.,1.,1.,0.19,-0.19,0.14,0.19,0.19,0.14,-0.19,-0.19,          85P    196
0.14,-0.19,0.19,0.14,-0.19,0.19,-0.19,0.19;                           85P    197
502,13,0.,-0.1275,0.1001886553514,0.,0.1275,0.1001886553514,0.,       87P    198
-0.1575,0.14,0.,0.1275,-0.27,0.,-0.1275,-0.27,0.,-0.1485,-0.27,       87P    199
0.,0.1485,-0.27,0.,0.1485,2.18547839493141D-17,0.,-0.1485,0.,0.,      87P    200
-0.19,0.,0.,0.19,0.,0.,0.19,0.14,0.,-0.19,0.14;                       87P    201
504,17,39,87,1,87,2,41,87,2,87,1,43,87,1,87,3,45,87,3,87,3,47,        89P    202
87,2,87,4,49,87,4,87,5,51,87,5,87,4,53,87,6,87,7,55,87,7,87,6,        89P    203
57,87,7,87,8,59,87,8,87,9,61,87,9,87,8,63,87,10,87,11,65,87,11,       89P    204
87,10,67,87,11,87,12,69,87,12,87,13,71,87,13,87,12;                   89P    205
406,1,6HSolid1;                                                       91P    206
314,74.9019607843137,74.9019607843137,74.9019607843137,;              93P    207
S      1G      3D     94P    207                                        T      1
