ISO-10303-21;
HEADER;
FILE_DESCRIPTION((''),'2;1');
FILE_NAME('16_TL-S_PRT','2002-10-15T',('ta29392'),(''),
'PRO/ENGINEER BY PARAMETRIC TECHNOLOGY CORPORATION, 2002220',
'PRO/ENGINEER BY PARAMETRIC TECHNOLOGY CORPORATION, 2002220','');
FILE_SCHEMA(('CONFIG_CONTROL_DESIGN'));
ENDSEC;
DATA;
#1=CARTESIAN_POINT('',(0.E0,0.E0,6.E-2));
#2=DIRECTION('',(0.E0,0.E0,1.E0));
#3=DIRECTION('',(0.E0,1.E0,0.E0));
#4=AXIS2_PLACEMENT_3D('',#1,#2,#3);
#6=CARTESIAN_POINT('',(0.E0,0.E0,6.E-2));
#7=DIRECTION('',(0.E0,0.E0,-1.E0));
#8=DIRECTION('',(0.E0,1.E0,0.E0));
#9=AXIS2_PLACEMENT_3D('',#6,#7,#8);
#11=CARTESIAN_POINT('',(0.E0,0.E0,6.E-2));
#12=DIRECTION('',(0.E0,0.E0,-1.E0));
#13=DIRECTION('',(0.E0,1.E0,0.E0));
#14=AXIS2_PLACEMENT_3D('',#11,#12,#13);
#16=DIRECTION('',(0.E0,0.E0,-1.E0));
#17=VECTOR('',#16,6.E-2);
#18=CARTESIAN_POINT('',(0.E0,4.055E-1,6.E-2));
#19=LINE('',#18,#17);
#20=DIRECTION('',(0.E0,0.E0,-1.E0));
#21=VECTOR('',#20,6.E-2);
#22=CARTESIAN_POINT('',(0.E0,-4.055E-1,6.E-2));
#23=LINE('',#22,#21);
#24=CARTESIAN_POINT('',(0.E0,0.E0,6.E-2));
#25=DIRECTION('',(0.E0,0.E0,1.E0));
#26=DIRECTION('',(0.E0,1.E0,0.E0));
#27=AXIS2_PLACEMENT_3D('',#24,#25,#26);
#29=CARTESIAN_POINT('',(0.E0,0.E0,0.E0));
#30=DIRECTION('',(0.E0,0.E0,1.E0));
#31=DIRECTION('',(0.E0,1.E0,0.E0));
#32=AXIS2_PLACEMENT_3D('',#29,#30,#31);
#34=CARTESIAN_POINT('',(0.E0,0.E0,0.E0));
#35=DIRECTION('',(0.E0,0.E0,-1.E0));
#36=DIRECTION('',(0.E0,1.E0,0.E0));
#37=AXIS2_PLACEMENT_3D('',#34,#35,#36);
#39=CARTESIAN_POINT('',(0.E0,0.E0,0.E0));
#40=DIRECTION('',(0.E0,0.E0,-1.E0));
#41=DIRECTION('',(0.E0,1.E0,0.E0));
#42=AXIS2_PLACEMENT_3D('',#39,#40,#41);
#44=DIRECTION('',(0.E0,0.E0,1.E0));
#45=VECTOR('',#44,2.76E-1);
#46=CARTESIAN_POINT('',(0.E0,6.735E-1,0.E0));
#47=LINE('',#46,#45);
#48=DIRECTION('',(0.E0,0.E0,1.E0));
#49=VECTOR('',#48,2.76E-1);
#50=CARTESIAN_POINT('',(0.E0,-6.735E-1,0.E0));
#51=LINE('',#50,#49);
#52=CARTESIAN_POINT('',(0.E0,0.E0,0.E0));
#53=DIRECTION('',(0.E0,0.E0,1.E0));
#54=DIRECTION('',(0.E0,1.E0,0.E0));
#55=AXIS2_PLACEMENT_3D('',#52,#53,#54);
#57=CARTESIAN_POINT('',(0.E0,0.E0,2.76E-1));
#58=DIRECTION('',(0.E0,0.E0,1.E0));
#59=DIRECTION('',(0.E0,1.E0,0.E0));
#60=AXIS2_PLACEMENT_3D('',#57,#58,#59);
#62=CARTESIAN_POINT('',(0.E0,0.E0,2.76E-1));
#63=DIRECTION('',(0.E0,0.E0,-1.E0));
#64=DIRECTION('',(0.E0,1.E0,0.E0));
#65=AXIS2_PLACEMENT_3D('',#62,#63,#64);
#67=CARTESIAN_POINT('',(0.E0,0.E0,2.76E-1));
#68=DIRECTION('',(0.E0,0.E0,-1.E0));
#69=DIRECTION('',(0.E0,1.E0,0.E0));
#70=AXIS2_PLACEMENT_3D('',#67,#68,#69);
#72=DIRECTION('',(0.E0,0.E0,1.E0));
#73=VECTOR('',#72,2.943550649705E-1);
#74=CARTESIAN_POINT('',(0.E0,5.65E-1,2.76E-1));
#75=LINE('',#74,#73);
#76=DIRECTION('',(0.E0,0.E0,1.E0));
#77=VECTOR('',#76,2.943550649705E-1);
#78=CARTESIAN_POINT('',(0.E0,-5.65E-1,2.76E-1));
#79=LINE('',#78,#77);
#80=CARTESIAN_POINT('',(0.E0,0.E0,2.76E-1));
#81=DIRECTION('',(0.E0,0.E0,1.E0));
#82=DIRECTION('',(0.E0,1.E0,0.E0));
#83=AXIS2_PLACEMENT_3D('',#80,#81,#82);
#85=DIRECTION('',(0.E0,-3.007057995043E-1,9.537169507482E-1));
#86=VECTOR('',#85,4.156886904279E-2);
#87=CARTESIAN_POINT('',(0.E0,5.65E-1,5.703550649705E-1));
#88=LINE('',#87,#86);
#89=DIRECTION('',(0.E0,3.007057995043E-1,9.537169507482E-1));
#90=VECTOR('',#89,4.156886904279E-2);
#91=CARTESIAN_POINT('',(0.E0,-5.65E-1,5.703550649705E-1));
#92=LINE('',#91,#90);
#93=CARTESIAN_POINT('',(0.E0,0.E0,5.703550649705E-1));
#94=DIRECTION('',(0.E0,0.E0,1.E0));
#95=DIRECTION('',(0.E0,1.E0,0.E0));
#96=AXIS2_PLACEMENT_3D('',#93,#94,#95);
#98=CARTESIAN_POINT('',(0.E0,0.E0,5.703550649705E-1));
#99=DIRECTION('',(0.E0,0.E0,-1.E0));
#100=DIRECTION('',(0.E0,1.E0,0.E0));
#101=AXIS2_PLACEMENT_3D('',#98,#99,#100);
#103=CARTESIAN_POINT('',(0.E0,0.E0,6.1E-1));
#104=DIRECTION('',(0.E0,0.E0,1.E0));
#105=DIRECTION('',(0.E0,1.E0,0.E0));
#106=AXIS2_PLACEMENT_3D('',#103,#104,#105);
#108=CARTESIAN_POINT('',(0.E0,0.E0,6.1E-1));
#109=DIRECTION('',(0.E0,0.E0,-1.E0));
#110=DIRECTION('',(0.E0,1.E0,0.E0));
#111=AXIS2_PLACEMENT_3D('',#108,#109,#110);
#113=CARTESIAN_POINT('',(0.E0,0.E0,6.1E-1));
#114=DIRECTION('',(0.E0,0.E0,-1.E0));
#115=DIRECTION('',(0.E0,1.E0,0.E0));
#116=AXIS2_PLACEMENT_3D('',#113,#114,#115);
#118=DIRECTION('',(0.E0,0.E0,-1.E0));
#119=VECTOR('',#118,5.5E-1);
#120=CARTESIAN_POINT('',(0.E0,5.035E-1,6.1E-1));
#121=LINE('',#120,#119);
#122=DIRECTION('',(0.E0,0.E0,-1.E0));
#123=VECTOR('',#122,5.5E-1);
#124=CARTESIAN_POINT('',(0.E0,-5.035E-1,6.1E-1));
#125=LINE('',#124,#123);
#126=CARTESIAN_POINT('',(0.E0,0.E0,6.1E-1));
#127=DIRECTION('',(0.E0,0.E0,1.E0));
#128=DIRECTION('',(0.E0,1.E0,0.E0));
#129=AXIS2_PLACEMENT_3D('',#126,#127,#128);
#131=CARTESIAN_POINT('',(0.E0,4.055E-1,6.E-2));
#132=CARTESIAN_POINT('',(0.E0,4.055E-1,0.E0));
#133=VERTEX_POINT('',#131);
#134=VERTEX_POINT('',#132);
#135=CARTESIAN_POINT('',(0.E0,6.735E-1,0.E0));
#136=CARTESIAN_POINT('',(0.E0,6.735E-1,2.76E-1));
#137=VERTEX_POINT('',#135);
#138=VERTEX_POINT('',#136);
#139=CARTESIAN_POINT('',(0.E0,5.65E-1,2.76E-1));
#140=CARTESIAN_POINT('',(0.E0,5.65E-1,5.703550649705E-1));
#141=VERTEX_POINT('',#139);
#142=VERTEX_POINT('',#140);
#143=CARTESIAN_POINT('',(0.E0,5.525E-1,6.1E-1));
#144=VERTEX_POINT('',#143);
#145=CARTESIAN_POINT('',(0.E0,5.035E-1,6.1E-1));
#146=CARTESIAN_POINT('',(0.E0,5.035E-1,6.E-2));
#147=VERTEX_POINT('',#145);
#148=VERTEX_POINT('',#146);
#149=CARTESIAN_POINT('',(0.E0,-4.055E-1,6.E-2));
#150=CARTESIAN_POINT('',(0.E0,-4.055E-1,0.E0));
#151=VERTEX_POINT('',#149);
#152=VERTEX_POINT('',#150);
#153=CARTESIAN_POINT('',(0.E0,-6.735E-1,0.E0));
#154=CARTESIAN_POINT('',(0.E0,-6.735E-1,2.76E-1));
#155=VERTEX_POINT('',#153);
#156=VERTEX_POINT('',#154);
#157=CARTESIAN_POINT('',(0.E0,-5.65E-1,2.76E-1));
#158=CARTESIAN_POINT('',(0.E0,-5.65E-1,5.703550649705E-1));
#159=VERTEX_POINT('',#157);
#160=VERTEX_POINT('',#158);
#161=CARTESIAN_POINT('',(0.E0,-5.525E-1,6.1E-1));
#162=VERTEX_POINT('',#161);
#163=CARTESIAN_POINT('',(0.E0,-5.035E-1,6.1E-1));
#164=CARTESIAN_POINT('',(0.E0,-5.035E-1,6.E-2));
#165=VERTEX_POINT('',#163);
#166=VERTEX_POINT('',#164);
#167=CARTESIAN_POINT('',(0.E0,0.E0,6.E-2));
#168=DIRECTION('',(0.E0,0.E0,-1.E0));
#169=DIRECTION('',(0.E0,-1.E0,0.E0));
#170=AXIS2_PLACEMENT_3D('',#167,#168,#169);
#171=PLANE('',#170);
#173=ORIENTED_EDGE('',*,*,#172,.F.);
#175=ORIENTED_EDGE('',*,*,#174,.T.);
#176=EDGE_LOOP('',(#173,#175));
#177=FACE_OUTER_BOUND('',#176,.F.);
#179=ORIENTED_EDGE('',*,*,#178,.F.);
#181=ORIENTED_EDGE('',*,*,#180,.T.);
#182=EDGE_LOOP('',(#179,#181));
#183=FACE_BOUND('',#182,.F.);
#184=ADVANCED_FACE('',(#177,#183),#171,.F.);
#185=CARTESIAN_POINT('',(0.E0,0.E0,6.405E-1));
#186=DIRECTION('',(0.E0,0.E0,-1.E0));
#187=DIRECTION('',(0.E0,-1.E0,0.E0));
#188=AXIS2_PLACEMENT_3D('',#185,#186,#187);
#189=CYLINDRICAL_SURFACE('',#188,4.055E-1);
#191=ORIENTED_EDGE('',*,*,#190,.F.);
#192=ORIENTED_EDGE('',*,*,#178,.T.);
#194=ORIENTED_EDGE('',*,*,#193,.T.);
#196=ORIENTED_EDGE('',*,*,#195,.F.);
#197=EDGE_LOOP('',(#191,#192,#194,#196));
#198=FACE_OUTER_BOUND('',#197,.F.);
#199=ADVANCED_FACE('',(#198),#189,.F.);
#200=CARTESIAN_POINT('',(0.E0,0.E0,6.405E-1));
#201=DIRECTION('',(0.E0,0.E0,-1.E0));
#202=DIRECTION('',(0.E0,-1.E0,0.E0));
#203=AXIS2_PLACEMENT_3D('',#200,#201,#202);
#204=CYLINDRICAL_SURFACE('',#203,4.055E-1);
#205=ORIENTED_EDGE('',*,*,#190,.T.);
#207=ORIENTED_EDGE('',*,*,#206,.T.);
#208=ORIENTED_EDGE('',*,*,#193,.F.);
#209=ORIENTED_EDGE('',*,*,#180,.F.);
#210=EDGE_LOOP('',(#205,#207,#208,#209));
#211=FACE_OUTER_BOUND('',#210,.F.);
#212=ADVANCED_FACE('',(#211),#204,.F.);
#213=CARTESIAN_POINT('',(0.E0,0.E0,0.E0));
#214=DIRECTION('',(0.E0,0.E0,-1.E0));
#215=DIRECTION('',(0.E0,-1.E0,0.E0));
#216=AXIS2_PLACEMENT_3D('',#213,#214,#215);
#217=PLANE('',#216);
#219=ORIENTED_EDGE('',*,*,#218,.F.);
#221=ORIENTED_EDGE('',*,*,#220,.T.);
#222=EDGE_LOOP('',(#219,#221));
#223=FACE_OUTER_BOUND('',#222,.F.);
#224=ORIENTED_EDGE('',*,*,#206,.F.);
#225=ORIENTED_EDGE('',*,*,#195,.T.);
#226=EDGE_LOOP('',(#224,#225));
#227=FACE_BOUND('',#226,.F.);
#228=ADVANCED_FACE('',(#223,#227),#217,.T.);
#229=CARTESIAN_POINT('',(0.E0,0.E0,6.405E-1));
#230=DIRECTION('',(0.E0,0.E0,-1.E0));
#231=DIRECTION('',(0.E0,-1.E0,0.E0));
#232=AXIS2_PLACEMENT_3D('',#229,#230,#231);
#233=CYLINDRICAL_SURFACE('',#232,6.735E-1);
#235=ORIENTED_EDGE('',*,*,#234,.F.);
#236=ORIENTED_EDGE('',*,*,#218,.T.);
#238=ORIENTED_EDGE('',*,*,#237,.T.);
#240=ORIENTED_EDGE('',*,*,#239,.F.);
#241=EDGE_LOOP('',(#235,#236,#238,#240));
#242=FACE_OUTER_BOUND('',#241,.F.);
#243=ADVANCED_FACE('',(#242),#233,.T.);
#244=CARTESIAN_POINT('',(0.E0,0.E0,6.405E-1));
#245=DIRECTION('',(0.E0,0.E0,-1.E0));
#246=DIRECTION('',(0.E0,-1.E0,0.E0));
#247=AXIS2_PLACEMENT_3D('',#244,#245,#246);
#248=CYLINDRICAL_SURFACE('',#247,6.735E-1);
#249=ORIENTED_EDGE('',*,*,#234,.T.);
#251=ORIENTED_EDGE('',*,*,#250,.T.);
#252=ORIENTED_EDGE('',*,*,#237,.F.);
#253=ORIENTED_EDGE('',*,*,#220,.F.);
#254=EDGE_LOOP('',(#249,#251,#252,#253));
#255=FACE_OUTER_BOUND('',#254,.F.);
#256=ADVANCED_FACE('',(#255),#248,.T.);
#257=CARTESIAN_POINT('',(0.E0,0.E0,2.76E-1));
#258=DIRECTION('',(0.E0,0.E0,-1.E0));
#259=DIRECTION('',(0.E0,-1.E0,0.E0));
#260=AXIS2_PLACEMENT_3D('',#257,#258,#259);
#261=PLANE('',#260);
#262=ORIENTED_EDGE('',*,*,#250,.F.);
#263=ORIENTED_EDGE('',*,*,#239,.T.);
#264=EDGE_LOOP('',(#262,#263));
#265=FACE_OUTER_BOUND('',#264,.F.);
#267=ORIENTED_EDGE('',*,*,#266,.F.);
#269=ORIENTED_EDGE('',*,*,#268,.T.);
#270=EDGE_LOOP('',(#267,#269));
#271=FACE_BOUND('',#270,.F.);
#272=ADVANCED_FACE('',(#265,#271),#261,.F.);
#273=CARTESIAN_POINT('',(0.E0,0.E0,6.405E-1));
#274=DIRECTION('',(0.E0,0.E0,-1.E0));
#275=DIRECTION('',(0.E0,-1.E0,0.E0));
#276=AXIS2_PLACEMENT_3D('',#273,#274,#275);
#277=CYLINDRICAL_SURFACE('',#276,5.65E-1);
#279=ORIENTED_EDGE('',*,*,#278,.F.);
#280=ORIENTED_EDGE('',*,*,#266,.T.);
#282=ORIENTED_EDGE('',*,*,#281,.T.);
#284=ORIENTED_EDGE('',*,*,#283,.F.);
#285=EDGE_LOOP('',(#279,#280,#282,#284));
#286=FACE_OUTER_BOUND('',#285,.F.);
#287=ADVANCED_FACE('',(#286),#277,.T.);
#288=CARTESIAN_POINT('',(0.E0,0.E0,6.405E-1));
#289=DIRECTION('',(0.E0,0.E0,-1.E0));
#290=DIRECTION('',(0.E0,-1.E0,0.E0));
#291=AXIS2_PLACEMENT_3D('',#288,#289,#290);
#292=CYLINDRICAL_SURFACE('',#291,5.65E-1);
#293=ORIENTED_EDGE('',*,*,#278,.T.);
#295=ORIENTED_EDGE('',*,*,#294,.T.);
#296=ORIENTED_EDGE('',*,*,#281,.F.);
#297=ORIENTED_EDGE('',*,*,#268,.F.);
#298=EDGE_LOOP('',(#293,#295,#296,#297));
#299=FACE_OUTER_BOUND('',#298,.F.);
#300=ADVANCED_FACE('',(#299),#292,.T.);
#301=CARTESIAN_POINT('',(0.E0,0.E0,5.901775324852E-1));
#302=DIRECTION('',(0.E0,0.E0,-1.E0));
#303=DIRECTION('',(0.E0,-1.E0,0.E0));
#304=AXIS2_PLACEMENT_3D('',#301,#302,#303);
#305=CONICAL_SURFACE('',#304,5.5875E-1,1.75E1);
#307=ORIENTED_EDGE('',*,*,#306,.T.);
#309=ORIENTED_EDGE('',*,*,#308,.T.);
#311=ORIENTED_EDGE('',*,*,#310,.F.);
#312=ORIENTED_EDGE('',*,*,#294,.F.);
#313=EDGE_LOOP('',(#307,#309,#311,#312));
#314=FACE_OUTER_BOUND('',#313,.F.);
#315=ADVANCED_FACE('',(#314),#305,.T.);
#316=CARTESIAN_POINT('',(0.E0,0.E0,5.901775324852E-1));
#317=DIRECTION('',(0.E0,0.E0,-1.E0));
#318=DIRECTION('',(0.E0,-1.E0,0.E0));
#319=AXIS2_PLACEMENT_3D('',#316,#317,#318);
#320=CONICAL_SURFACE('',#319,5.5875E-1,1.75E1);
#321=ORIENTED_EDGE('',*,*,#306,.F.);
#322=ORIENTED_EDGE('',*,*,#283,.T.);
#323=ORIENTED_EDGE('',*,*,#310,.T.);
#325=ORIENTED_EDGE('',*,*,#324,.F.);
#326=EDGE_LOOP('',(#321,#322,#323,#325));
#327=FACE_OUTER_BOUND('',#326,.F.);
#328=ADVANCED_FACE('',(#327),#320,.T.);
#329=CARTESIAN_POINT('',(0.E0,0.E0,6.1E-1));
#330=DIRECTION('',(0.E0,0.E0,-1.E0));
#331=DIRECTION('',(0.E0,-1.E0,0.E0));
#332=AXIS2_PLACEMENT_3D('',#329,#330,#331);
#333=PLANE('',#332);
#334=ORIENTED_EDGE('',*,*,#308,.F.);
#335=ORIENTED_EDGE('',*,*,#324,.T.);
#336=EDGE_LOOP('',(#334,#335));
#337=FACE_OUTER_BOUND('',#336,.F.);
#339=ORIENTED_EDGE('',*,*,#338,.F.);
#341=ORIENTED_EDGE('',*,*,#340,.T.);
#342=EDGE_LOOP('',(#339,#341));
#343=FACE_BOUND('',#342,.F.);
#344=ADVANCED_FACE('',(#337,#343),#333,.F.);
#345=CARTESIAN_POINT('',(0.E0,0.E0,6.405E-1));
#346=DIRECTION('',(0.E0,0.E0,-1.E0));
#347=DIRECTION('',(0.E0,-1.E0,0.E0));
#348=AXIS2_PLACEMENT_3D('',#345,#346,#347);
#349=CYLINDRICAL_SURFACE('',#348,5.035E-1);
#351=ORIENTED_EDGE('',*,*,#350,.F.);
#352=ORIENTED_EDGE('',*,*,#338,.T.);
#354=ORIENTED_EDGE('',*,*,#353,.T.);
#355=ORIENTED_EDGE('',*,*,#174,.F.);
#356=EDGE_LOOP('',(#351,#352,#354,#355));
#357=FACE_OUTER_BOUND('',#356,.F.);
#358=ADVANCED_FACE('',(#357),#349,.F.);
#359=CARTESIAN_POINT('',(0.E0,0.E0,6.405E-1));
#360=DIRECTION('',(0.E0,0.E0,-1.E0));
#361=DIRECTION('',(0.E0,-1.E0,0.E0));
#362=AXIS2_PLACEMENT_3D('',#359,#360,#361);
#363=CYLINDRICAL_SURFACE('',#362,5.035E-1);
#364=ORIENTED_EDGE('',*,*,#350,.T.);
#365=ORIENTED_EDGE('',*,*,#172,.T.);
#366=ORIENTED_EDGE('',*,*,#353,.F.);
#367=ORIENTED_EDGE('',*,*,#340,.F.);
#368=EDGE_LOOP('',(#364,#365,#366,#367));
#369=FACE_OUTER_BOUND('',#368,.F.);
#370=ADVANCED_FACE('',(#369),#363,.F.);
#371=CLOSED_SHELL('',(#184,#199,#212,#228,#243,#256,#272,#287,#300,#315,#328,
#344,#358,#370));
#372=MANIFOLD_SOLID_BREP('',#371);
#373=DIMENSIONAL_EXPONENTS(1.E0,0.E0,0.E0,0.E0,0.E0,0.E0,0.E0);
#374=(LENGTH_UNIT()NAMED_UNIT(*)SI_UNIT(.MILLI.,.METRE.));
#375=LENGTH_MEASURE_WITH_UNIT(LENGTH_MEASURE(2.54E1),#374);
#376=(CONVERSION_BASED_UNIT('INCH',#375)LENGTH_UNIT()NAMED_UNIT(#373));
#377=DIMENSIONAL_EXPONENTS(0.E0,0.E0,0.E0,0.E0,0.E0,0.E0,0.E0);
#378=(NAMED_UNIT(*)PLANE_ANGLE_UNIT()SI_UNIT($,.RADIAN.));
#379=PLANE_ANGLE_MEASURE_WITH_UNIT(PLANE_ANGLE_MEASURE(1.745329251994E-2),#378);
#380=(CONVERSION_BASED_UNIT('DEGREE',#379)NAMED_UNIT(#377)PLANE_ANGLE_UNIT());
#381=(NAMED_UNIT(*)SI_UNIT($,.STERADIAN.)SOLID_ANGLE_UNIT());
#382=UNCERTAINTY_MEASURE_WITH_UNIT(LENGTH_MEASURE(2.000149477654E-4),#376,
'closure',
'Maximum model space distance between geometric entities at asserted connectivities');
#383=(GEOMETRIC_REPRESENTATION_CONTEXT(3)GLOBAL_UNCERTAINTY_ASSIGNED_CONTEXT((
#382))GLOBAL_UNIT_ASSIGNED_CONTEXT((#376,#380,#381))REPRESENTATION_CONTEXT
('ID1','3'));
#385=APPLICATION_CONTEXT(
'CONFIGURATION CONTROLLED 3D DESIGNS OF MECHANICAL PARTS AND ASSEMBLIES');
#386=APPLICATION_PROTOCOL_DEFINITION('international standard',
'config_control_design',1994,#385);
#387=DESIGN_CONTEXT('',#385,'design');
#388=MECHANICAL_CONTEXT('',#385,'mechanical');
#389=PRODUCT('16_TL-S_PRT','16_TL-S_PRT','NOT SPECIFIED',(#388));
#390=PRODUCT_DEFINITION_FORMATION_WITH_SPECIFIED_SOURCE('1','LAST_VERSION',#389,
.MADE.);
#394=PRODUCT_CATEGORY('part','');
#395=PRODUCT_RELATED_PRODUCT_CATEGORY('detail','',(#389));
#396=PRODUCT_CATEGORY_RELATIONSHIP('','',#394,#395);
#397=SECURITY_CLASSIFICATION_LEVEL('unclassified');
#398=SECURITY_CLASSIFICATION('','',#397);
#399=CC_DESIGN_SECURITY_CLASSIFICATION(#398,(#390));
#400=APPROVAL_STATUS('approved');
#401=APPROVAL(#400,'');
#402=CC_DESIGN_APPROVAL(#401,(#398,#390,#391));
#403=CALENDAR_DATE(102,15,10);
#404=COORDINATED_UNIVERSAL_TIME_OFFSET(3,0,.BEHIND.);
#405=LOCAL_TIME(15,23,5.3E1,#404);
#406=DATE_AND_TIME(#403,#405);
#407=APPROVAL_DATE_TIME(#406,#401);
#408=DATE_TIME_ROLE('creation_date');
#409=CC_DESIGN_DATE_AND_TIME_ASSIGNMENT(#406,#408,(#391));
#410=DATE_TIME_ROLE('classification_date');
#411=CC_DESIGN_DATE_AND_TIME_ASSIGNMENT(#406,#410,(#398));
#412=PERSON('UNSPECIFIED','UNSPECIFIED',$,$,$,$);
#413=ORGANIZATION('UNSPECIFIED','UNSPECIFIED','UNSPECIFIED');
#414=PERSON_AND_ORGANIZATION(#412,#413);
#415=APPROVAL_ROLE('approver');
#416=APPROVAL_PERSON_ORGANIZATION(#414,#401,#415);
#417=PERSON_AND_ORGANIZATION_ROLE('creator');
#418=CC_DESIGN_PERSON_AND_ORGANIZATION_ASSIGNMENT(#414,#417,(#390,#391));
#419=PERSON_AND_ORGANIZATION_ROLE('design_supplier');
#420=CC_DESIGN_PERSON_AND_ORGANIZATION_ASSIGNMENT(#414,#419,(#390));
#421=PERSON_AND_ORGANIZATION_ROLE('classification_officer');
#422=CC_DESIGN_PERSON_AND_ORGANIZATION_ASSIGNMENT(#414,#421,(#398));
#423=PERSON_AND_ORGANIZATION_ROLE('design_owner');
#424=CC_DESIGN_PERSON_AND_ORGANIZATION_ASSIGNMENT(#414,#423,(#389));
#5=CIRCLE('',#4,5.035E-1);
#10=CIRCLE('',#9,5.035E-1);
#15=CIRCLE('',#14,4.055E-1);
#28=CIRCLE('',#27,4.055E-1);
#33=CIRCLE('',#32,4.055E-1);
#38=CIRCLE('',#37,4.055E-1);
#43=CIRCLE('',#42,6.735E-1);
#56=CIRCLE('',#55,6.735E-1);
#61=CIRCLE('',#60,6.735E-1);
#66=CIRCLE('',#65,6.735E-1);
#71=CIRCLE('',#70,5.65E-1);
#84=CIRCLE('',#83,5.65E-1);
#97=CIRCLE('',#96,5.65E-1);
#102=CIRCLE('',#101,5.65E-1);
#107=CIRCLE('',#106,5.525E-1);
#112=CIRCLE('',#111,5.525E-1);
#117=CIRCLE('',#116,5.035E-1);
#130=CIRCLE('',#129,5.035E-1);
#172=EDGE_CURVE('',#148,#166,#5,.T.);
#174=EDGE_CURVE('',#148,#166,#10,.T.);
#178=EDGE_CURVE('',#133,#151,#15,.T.);
#180=EDGE_CURVE('',#133,#151,#28,.T.);
#190=EDGE_CURVE('',#133,#134,#19,.T.);
#193=EDGE_CURVE('',#151,#152,#23,.T.);
#195=EDGE_CURVE('',#134,#152,#38,.T.);
#206=EDGE_CURVE('',#134,#152,#33,.T.);
#218=EDGE_CURVE('',#137,#155,#43,.T.);
#220=EDGE_CURVE('',#137,#155,#56,.T.);
#234=EDGE_CURVE('',#137,#138,#47,.T.);
#237=EDGE_CURVE('',#155,#156,#51,.T.);
#239=EDGE_CURVE('',#138,#156,#66,.T.);
#250=EDGE_CURVE('',#138,#156,#61,.T.);
#266=EDGE_CURVE('',#141,#159,#71,.T.);
#268=EDGE_CURVE('',#141,#159,#84,.T.);
#278=EDGE_CURVE('',#141,#142,#75,.T.);
#281=EDGE_CURVE('',#159,#160,#79,.T.);
#283=EDGE_CURVE('',#142,#160,#102,.T.);
#294=EDGE_CURVE('',#142,#160,#97,.T.);
#306=EDGE_CURVE('',#142,#144,#88,.T.);
#308=EDGE_CURVE('',#144,#162,#107,.T.);
#310=EDGE_CURVE('',#160,#162,#92,.T.);
#324=EDGE_CURVE('',#144,#162,#112,.T.);
#338=EDGE_CURVE('',#147,#165,#117,.T.);
#340=EDGE_CURVE('',#147,#165,#130,.T.);
#350=EDGE_CURVE('',#147,#148,#121,.T.);
#353=EDGE_CURVE('',#165,#166,#125,.T.);
#384=ADVANCED_BREP_SHAPE_REPRESENTATION('',(#372),#383);
#391=PRODUCT_DEFINITION('design','',#390,#387);
#392=PRODUCT_DEFINITION_SHAPE('','SHAPE FOR 16_TL-S_PRT.',#391);
#393=SHAPE_DEFINITION_REPRESENTATION(#392,#384);
ENDSEC;
END-ISO-10303-21;
