ISO-10303-21;
HEADER;
/* Generated by software containing ST-Developer
 * from STEP Tools, Inc. (www.steptools.com) 
 */

FILE_DESCRIPTION(
/* description */ ('SOLID O SHAPE'),
/* implementation_level */ '2;1');

FILE_NAME(
/* name */ 
'D:\\SJ00735292\\CHOMERICS\\Solid O Shape CAD Files\\\\IPT\\STEP\\10-0
4-1687-S6305.ipt.stp',
/* time_stamp */ '2021-07-21T12:53:53+05:00',
/* author */ (''),
/* organization */ (''),
/* preprocessor_version */ 'ST-DEVELOPER v18',
/* originating_system */ 'Autodesk Inventor 2020',
/* authorisation */ '');

FILE_SCHEMA (('AUTOMOTIVE_DESIGN { 1 0 10303 214 3 1 1 }'));
ENDSEC;

DATA;
#10=MECHANICAL_DESIGN_GEOMETRIC_PRESENTATION_REPRESENTATION('',(#13),#112);
#11=SHAPE_REPRESENTATION_RELATIONSHIP('SRR','None',#122,#12);
#12=ADVANCED_BREP_SHAPE_REPRESENTATION('',(#14),#111);
#13=STYLED_ITEM('',(#131),#14);
#14=MANIFOLD_SOLID_BREP('Solid2',#52);
#15=PLANE('',#77);
#16=PLANE('',#78);
#17=FACE_OUTER_BOUND('',#20,.T.);
#18=FACE_OUTER_BOUND('',#21,.T.);
#19=FACE_OUTER_BOUND('',#22,.T.);
#20=EDGE_LOOP('',(#38,#39,#40,#41,#42,#43));
#21=EDGE_LOOP('',(#44,#45));
#22=EDGE_LOOP('',(#46,#47));
#23=LINE('',#103,#24);
#24=VECTOR('',#87,0.035);
#25=CIRCLE('',#73,0.035);
#26=CIRCLE('',#74,0.035);
#27=CIRCLE('',#75,0.035);
#28=CIRCLE('',#76,0.035);
#29=VERTEX_POINT('',#98);
#30=VERTEX_POINT('',#99);
#31=VERTEX_POINT('',#102);
#32=VERTEX_POINT('',#104);
#33=EDGE_CURVE('',#29,#30,#25,.T.);
#34=EDGE_CURVE('',#30,#29,#26,.T.);
#35=EDGE_CURVE('',#30,#31,#23,.T.);
#36=EDGE_CURVE('',#32,#31,#27,.T.);
#37=EDGE_CURVE('',#31,#32,#28,.T.);
#38=ORIENTED_EDGE('',*,*,#33,.F.);
#39=ORIENTED_EDGE('',*,*,#34,.F.);
#40=ORIENTED_EDGE('',*,*,#35,.T.);
#41=ORIENTED_EDGE('',*,*,#36,.F.);
#42=ORIENTED_EDGE('',*,*,#37,.F.);
#43=ORIENTED_EDGE('',*,*,#35,.F.);
#44=ORIENTED_EDGE('',*,*,#36,.T.);
#45=ORIENTED_EDGE('',*,*,#37,.T.);
#46=ORIENTED_EDGE('',*,*,#33,.T.);
#47=ORIENTED_EDGE('',*,*,#34,.T.);
#48=CYLINDRICAL_SURFACE('',#72,0.035);
#49=ADVANCED_FACE('',(#17),#48,.T.);
#50=ADVANCED_FACE('',(#18),#15,.T.);
#51=ADVANCED_FACE('',(#19),#16,.F.);
#52=CLOSED_SHELL('',(#49,#50,#51));
#53=DERIVED_UNIT_ELEMENT(#55,1.);
#54=DERIVED_UNIT_ELEMENT(#116,3.);
#55=(
MASS_UNIT()
NAMED_UNIT(*)
SI_UNIT($,.GRAM.)
);
#56=DERIVED_UNIT((#53,#54));
#57=MEASURE_REPRESENTATION_ITEM('density measure',
POSITIVE_RATIO_MEASURE(1.),#56);
#58=PROPERTY_DEFINITION_REPRESENTATION(#63,#60);
#59=PROPERTY_DEFINITION_REPRESENTATION(#64,#61);
#60=REPRESENTATION('material name',(#62),#111);
#61=REPRESENTATION('density',(#57),#111);
#62=DESCRIPTIVE_REPRESENTATION_ITEM('Generic','Generic');
#63=PROPERTY_DEFINITION('material property','material name',#124);
#64=PROPERTY_DEFINITION('material property','density of part',#124);
#65=DATE_TIME_ROLE('creation_date');
#66=APPLIED_DATE_AND_TIME_ASSIGNMENT(#67,#65,(#124));
#67=DATE_AND_TIME(#68,#69);
#68=CALENDAR_DATE(2020,16,7);
#69=LOCAL_TIME(7,38,21.,#70);
#70=COORDINATED_UNIVERSAL_TIME_OFFSET(0,0,.BEHIND.);
#71=AXIS2_PLACEMENT_3D('placement',#96,#79,#80);
#72=AXIS2_PLACEMENT_3D('',#97,#81,#82);
#73=AXIS2_PLACEMENT_3D('',#100,#83,#84);
#74=AXIS2_PLACEMENT_3D('',#101,#85,#86);
#75=AXIS2_PLACEMENT_3D('',#105,#88,#89);
#76=AXIS2_PLACEMENT_3D('',#106,#90,#91);
#77=AXIS2_PLACEMENT_3D('',#107,#92,#93);
#78=AXIS2_PLACEMENT_3D('',#108,#94,#95);
#79=DIRECTION('axis',(0.,0.,1.));
#80=DIRECTION('refdir',(1.,0.,0.));
#81=DIRECTION('center_axis',(-1.,0.,0.));
#82=DIRECTION('ref_axis',(0.,1.,0.));
#83=DIRECTION('center_axis',(-1.,0.,0.));
#84=DIRECTION('ref_axis',(0.,1.,0.));
#85=DIRECTION('center_axis',(-1.,0.,0.));
#86=DIRECTION('ref_axis',(0.,1.,0.));
#87=DIRECTION('',(1.,0.,0.));
#88=DIRECTION('center_axis',(1.,0.,0.));
#89=DIRECTION('ref_axis',(0.,1.,0.));
#90=DIRECTION('center_axis',(1.,0.,0.));
#91=DIRECTION('ref_axis',(0.,1.,0.));
#92=DIRECTION('center_axis',(1.,0.,0.));
#93=DIRECTION('ref_axis',(0.,0.,-1.));
#94=DIRECTION('center_axis',(1.,0.,0.));
#95=DIRECTION('ref_axis',(0.,0.,-1.));
#96=CARTESIAN_POINT('',(0.,0.,0.));
#97=CARTESIAN_POINT('Origin',(0.,0.,0.));
#98=CARTESIAN_POINT('',(-1.,0.035,0.));
#99=CARTESIAN_POINT('',(-1.,-0.035,4.28626379701574E-18));
#100=CARTESIAN_POINT('Origin',(-1.,0.,0.));
#101=CARTESIAN_POINT('Origin',(-1.,0.,0.));
#102=CARTESIAN_POINT('',(0.,-0.035,4.28626379701574E-18));
#103=CARTESIAN_POINT('',(0.,-0.035,4.28626379701574E-18));
#104=CARTESIAN_POINT('',(0.,0.035,0.));
#105=CARTESIAN_POINT('Origin',(0.,0.,0.));
#106=CARTESIAN_POINT('Origin',(0.,0.,0.));
#107=CARTESIAN_POINT('Origin',(0.,0.,0.));
#108=CARTESIAN_POINT('Origin',(-1.,0.,0.));
#109=UNCERTAINTY_MEASURE_WITH_UNIT(LENGTH_MEASURE(0.000393700787401575),
#114,'DISTANCE_ACCURACY_VALUE',
'Maximum model space distance between geometric entities at asserted c
onnectivities');
#110=UNCERTAINTY_MEASURE_WITH_UNIT(LENGTH_MEASURE(0.000393700787401575),
#114,'DISTANCE_ACCURACY_VALUE',
'Maximum model space distance between geometric entities at asserted c
onnectivities');
#111=(
GEOMETRIC_REPRESENTATION_CONTEXT(3)
GLOBAL_UNCERTAINTY_ASSIGNED_CONTEXT((#109))
GLOBAL_UNIT_ASSIGNED_CONTEXT((#114,#118,#119))
REPRESENTATION_CONTEXT('','3D')
);
#112=(
GEOMETRIC_REPRESENTATION_CONTEXT(3)
GLOBAL_UNCERTAINTY_ASSIGNED_CONTEXT((#110))
GLOBAL_UNIT_ASSIGNED_CONTEXT((#114,#118,#119))
REPRESENTATION_CONTEXT('','3D')
);
#113=DIMENSIONAL_EXPONENTS(1.,0.,0.,0.,0.,0.,0.);
#114=(
CONVERSION_BASED_UNIT('inch',#117)
LENGTH_UNIT()
NAMED_UNIT(#113)
);
#115=(
LENGTH_UNIT()
NAMED_UNIT(*)
SI_UNIT(.MILLI.,.METRE.)
);
#116=(
LENGTH_UNIT()
NAMED_UNIT(*)
SI_UNIT(.CENTI.,.METRE.)
);
#117=LENGTH_MEASURE_WITH_UNIT(LENGTH_MEASURE(25.4),#115);
#118=(
NAMED_UNIT(*)
PLANE_ANGLE_UNIT()
SI_UNIT($,.RADIAN.)
);
#119=(
NAMED_UNIT(*)
SI_UNIT($,.STERADIAN.)
SOLID_ANGLE_UNIT()
);
#120=SHAPE_DEFINITION_REPRESENTATION(#121,#122);
#121=PRODUCT_DEFINITION_SHAPE('',$,#124);
#122=SHAPE_REPRESENTATION('',(#71),#111);
#123=PRODUCT_DEFINITION_CONTEXT('part definition',#128,'design');
#124=PRODUCT_DEFINITION('10-04-1687-S6305','10-04-1687-S6305',#125,#123);
#125=PRODUCT_DEFINITION_FORMATION('',$,#130);
#126=PRODUCT_RELATED_PRODUCT_CATEGORY('10-04-1687-S6305',
'10-04-1687-S6305',(#130));
#127=APPLICATION_PROTOCOL_DEFINITION('international standard',
'automotive_design',2009,#128);
#128=APPLICATION_CONTEXT(
'Core Data for Automotive Mechanical Design Process');
#129=PRODUCT_CONTEXT('part definition',#128,'mechanical');
#130=PRODUCT('10-04-1687-S6305','10-04-1687-S6305','SOLID O SHAPE',(#129));
#131=PRESENTATION_STYLE_ASSIGNMENT((#132));
#132=SURFACE_STYLE_USAGE(.BOTH.,#135);
#133=SURFACE_STYLE_RENDERING_WITH_PROPERTIES($,#139,(#134));
#134=SURFACE_STYLE_TRANSPARENT(0.);
#135=SURFACE_SIDE_STYLE('',(#136,#133));
#136=SURFACE_STYLE_FILL_AREA(#137);
#137=FILL_AREA_STYLE('',(#138));
#138=FILL_AREA_STYLE_COLOUR('',#139);
#139=COLOUR_RGB('',0.749019607843137,0.749019607843137,0.749019607843137);
ENDSEC;
END-ISO-10303-21;
